Information

  • Title: Jerome
  • Written by: Krukowski/Wareham/Yang

Guitar

--------------------------------------------------
----12--12--12--12--12--10--10--------------------
-----0----0----0---0----0---0----0---11-11-11--11-
--------------------------------------------0---0-
--------------------------------------------------
--------------------------------------------------
------------------------
--------------------10--
--9 h 11--11------------
--0---0-----------------
------------------------
------------------------
strum: G D
change: E B E B E B C A
(provided by brad)