Information

  • Title: The Other Side
  • Written by: Krukowski/Wareham/Yang

Lyrics

He sent me an envelope with himself inside
He sent me a letter with no letter inside
He sent me an envelope with himself inside

Receiving letters from the other room
Receiving letters from the other room

But I just saw him yesterday
But I just saw him the other day
But I just saw him yesterday
But I just saw him the other day

Last week, last second, last minute, last hour,
Last second, last minute, just a moment ago

Receiving letters from the other room
Receiving letters from the other room

Guitar

------2---------2-------2-------------------------
----------3--------3------------3--------3--------
-------------------------------------2-------2----
---0---------0-------0----------------------------
------------------------------3---------3-------3-
--------------------------------------------------
--------------------------------------------------
3------3--------3-------3------3-------3-------3--
------------2--------2---------------2-------2----
-------------------------------2--------2-------2-
-----2--------2--------2--------------------------
--------------------------------------------------
the strumming part is D C Bmin

(provided by brad)