Information

  • Title: Tracy I Love You
  • Written by:

Lyrics

Tell me stories on my birthday
Buy me gifts on Halloween
She's pretending not know me
But I know where she's been

Change your name and change
Your number
I'm gonna find you anyhow
I have been through all your things
Asking when and how and why

I spend too much time in airplanes
Eating peanuts
And getting high
Don't know why I can't stop smiling
When I only need to cry

Guitar

(provided by Matt)

Gmaj6- 320030 

C                    Gm
Tell me stories on my birthday
F               C   
Buy me gifts on Halloween
C                       Gm 
She's pretending not to know me
      F                C
But I know where she's been

(Chorus)
F                               C 
Change your name and change you number
C         F Fm     Gmaj6   
I'm gonna find you anyhow
       F                     Em
I have been through all your things
       Em(add D) Em(add C) Em 
Asking when  and how  and  why

(interlude)
  C
E---------------------------------------6h8-8p6------------
B-----------1-3b-1----8-8-8-8-6-8---8-8---------8----------
G--0h3-0-3-------------------------------------------------
D----------------------------------------------------------
A----------------------------------------------------------
E----------------------------------------------------------

C                        Gm
I spend too much time in airplanes
       F                   C
Eating peanuts and getting high
C                           Gm  
Don't know why I can't stop smiling
F                   C  
When I only need to cry

(Repeat Chorus)


  Em               C               Em                Gm
E-10h12-10-------------10h12-10----------10h12-10----------
B----------13-10----------------13-12--------------13-11---
G------------------12--------------------------------------
D----------------------------------------------------------
A----------------------------------------------------------
E----------------------------------------------------------

                F              C            F 
E-------------------------------------------12-------12----
B-11h13-11-13-13b-11-10h11-10---------13-13----13-13----13-
G-----------------------------12---------------------------
D----------------------------------------------------------
A----------------------------------------------------------
E----------------------------------------------------------

      Fm                        Gmaj6             G
E-----10-------10----10-10-10------------------------------
B--10----13-13----13----------13-12---------12-13----------
G----------------------------------------12-------12-------
D----------------------------------------------------------
A----------------------------------------------------------
E----------------------------------------------------------

               F
E-----12---------------------------------------------------
B--13----13-10-13------------------------------------------
G----------------------------------------------------------
D----------------------------------------------------------
A----------------------------------------------------------
E----------------------------------------------------------

outro (Repeat Chorus) 

C Gm

       C        Gm            C        Gm     (repeat)
E---------------------------------------------------------
B--3-/-5-----5--3--------3-/-5-----5--3-----------------
G--3-/-5-----5--3--------3-/-5-----5--3-----------------
D---------------------------------------------------------
A---------------------------------------------------------
E---------------------------------------------------------